0
SECTION
2
HEADER
9
$INSUNITS
70
4
9
$ACADVER
1
AC1014
9
$HANDSEED
5
FFFF
0
ENDSEC
0
SECTION
2
TABLES
0
TABLE
2
VPORT
5
8
100
AcDbSymbolTable
0
ENDTAB
0
TABLE
2
LTYPE
5
5
100
AcDbSymbolTable
0
LTYPE
5
14
100
AcDbSymbolTableRecord
100
AcDbLinetypeTableRecord
2
BYBLOCK
70
0
0
LTYPE
5
15
100
AcDbSymbolTableRecord
100
AcDbLinetypeTableRecord
2
BYLAYER
70
0
0
ENDTAB
0
TABLE
2
LAYER
5
2
100
AcDbSymbolTable
70
2
0
LAYER
5
50
100
AcDbSymbolTableRecord
100
AcDbLayerTableRecord
2
0
70
0
6
CONTINUOUS
0
ENDTAB
0
TABLE
2
STYLE
5
3
100
AcDbSymbolTable
70
1
0
STYLE
5
11
100
AcDbSymbolTableRecord
100
AcDbTextStyleTableRecord
2
STANDARD
70
0
0
ENDTAB
0
TABLE
2
VIEW
5
6
100
AcDbSymbolTable
70
0
0
ENDTAB
0
TABLE
2
UCS
5
7
100
AcDbSymbolTable
70
0
0
ENDTAB
0
TABLE
2
APPID
5
9
100
AcDbSymbolTable
70
2
0
APPID
5
12
100
AcDbSymbolTableRecord
100
AcDbRegAppTableRecord
2
ACAD
70
0
0
ENDTAB
0
TABLE
2
DIMSTYLE
5
A
100
AcDbSymbolTable
70
1
0
ENDTAB
0
TABLE
2
BLOCK_RECORD
5
1
100
AcDbSymbolTable
70
1
0
BLOCK_RECORD
5
1F
100
AcDbSymbolTableRecord
100
AcDbBlockTableRecord
2
*MODEL_SPACE
0
BLOCK_RECORD
5
1B
100
AcDbSymbolTableRecord
100
AcDbBlockTableRecord
2
*PAPER_SPACE
0
ENDTAB
0
ENDSEC
0
SECTION
2
BLOCKS
0
BLOCK
5
20
100
AcDbEntity
100
AcDbBlockBegin
2
*MODEL_SPACE
0
ENDBLK
5
21
100
AcDbEntity
100
AcDbBlockEnd
0
BLOCK
5
1C
100
AcDbEntity
100
AcDbBlockBegin
2
*PAPER_SPACE
0
ENDBLK
5
1D
100
AcDbEntity
100
AcDbBlockEnd
0
ENDSEC
0
SECTION
2
ENTITIES
0
LINE
5
100
100
AcDbEntity
8
0
100
AcDbLine
10
-48.999999999999993
20
-39.999999642372131
30
0
11
-49.000000000000014
21
13.000000554147405
31
0
0
ARC
5
101
100
AcDbEntity
8
0
100
AcDbCircle
10
-47.500000000000007
20
13.00000035762787
30
0
40
1.5000000000000124
210
0
220
-0
230
1
100
AcDbArc
50
0
51
179.99999250816666
0
LINE
5
102
100
AcDbEntity
8
0
100
AcDbLine
10
-46
20
13.000000357627874
30
0
11
-45.999999999999979
21
-39.999999803653559
31
0
0
ARC
5
103
100
AcDbEntity
8
0
100
AcDbCircle
10
-47.499999999999986
20
-39.999999642372131
30
0
40
1.5000000000000124
210
0
220
0
230
1
100
AcDbArc
50
180
51
359.99999384335069
0
LWPOLYLINE
5
104
100
AcDbEntity
8
0
100
AcDbPolyline
90
4
70
1
43
0.0
10
-28.642857142857132
20
19.000000357627876
10
-28.642857142857146
20
-45.999999642372131
42
0.99999999999999989
10
-25.642857142857139
20
-45.999999642372131
10
-25.642857142857125
20
19.000000357627876
42
0.99999999999999989
0
LWPOLYLINE
5
105
100
AcDbEntity
8
0
100
AcDbPolyline
90
4
70
1
43
0.0
10
1.5000000000000018
20
-39.999999642372124
42
-0.99999999999999989
10
-1.5000000000000018
20
-39.999999642372131
10
-1.4999999999999858
20
19.000000357627879
42
-0.99999999999999989
10
1.5000000000000213
20
19.000000357627876
0
LWPOLYLINE
5
106
100
AcDbEntity
8
0
100
AcDbPolyline
90
4
70
1
43
0.0
10
25.64285714285716
20
19.000000357627876
10
25.642857142857139
20
-45.999999642372131
42
0.99999999999999989
10
28.642857142857146
20
-45.999999642372131
10
28.642857142857167
20
19.000000357627876
42
0.99999999999999989
0
ARC
5
107
100
AcDbEntity
8
0
100
AcDbCircle
10
47.499999999999986
20
-39.999999642372124
30
0
40
1.5000000000000122
210
0
220
0
230
1
100
AcDbArc
50
179.99999384335069
51
360
0
LINE
5
108
100
AcDbEntity
8
0
100
AcDbLine
10
45.999999999999979
20
-39.999999480998497
30
0
11
46.000000000000007
21
13.00000023945584
31
0
0
ARC
5
109
100
AcDbEntity
8
0
100
AcDbCircle
10
47.500000000000007
20
13.000000357627869
30
0
40
1.5000000000000124
210
0
220
-0
230
1
100
AcDbArc
50
0
51
180.00000451774551
0
LINE
5
110
100
AcDbEntity
8
0
100
AcDbLine
10
49.000000000000021
20
13.000000357627874
30
0
11
48.999999999999993
21
-39.999999642565051
31
0
0
CIRCLE
5
111
100
AcDbEntity
8
0
100
AcDbCircle
10
47.5
20
19.000000357627876
30
0
40
1.749999999999998
210
0
220
0
230
1
0
LWPOLYLINE
5
112
100
AcDbEntity
8
0
100
AcDbPolyline
90
4
70
1
43
0.0
10
18.857142857142868
20
19.000000357627876
10
18.857142857142854
20
-45.999999642372131
42
0.99999999999999989
10
21.857142857142861
20
-45.999999642372131
10
21.857142857142875
20
19.000000357627876
42
0.99999999999999989
0
LWPOLYLINE
5
113
100
AcDbEntity
8
0
100
AcDbPolyline
90
4
70
1
43
0.0
10
-8.285714285714274
20
19.000000357627876
10
-8.2857142857142918
20
-45.999999642372131
42
0.99999999999999989
10
-5.2857142857142847
20
-45.999999642372131
10
-5.2857142857142669
20
19.000000357627876
42
0.99999999999999989
0
LWPOLYLINE
5
114
100
AcDbEntity
8
0
100
AcDbPolyline
90
4
70
1
43
0.0
10
-35.428571428571409
20
19.000000357627876
10
-35.428571428571431
20
-45.999999642372131
42
0.99999999999999989
10
-32.428571428571416
20
-45.999999642372131
10
-32.428571428571402
20
19.000000357627876
42
0.99999999999999989
0
CIRCLE
5
115
100
AcDbEntity
8
0
100
AcDbCircle
10
-47.5
20
-45.999999642372131
30
0
40
1.749999999999998
210
0
220
0
230
1
0
CIRCLE
5
116
100
AcDbEntity
8
0
100
AcDbCircle
10
-47.5
20
19.000000357627876
30
0
40
1.749999999999998
210
0
220
0
230
1
0
LWPOLYLINE
5
117
100
AcDbEntity
8
0
100
AcDbPolyline
90
4
70
1
43
0.0
10
-21.857142857142851
20
19.000000357627876
10
-21.857142857142868
20
-45.999999642372131
42
0.99999999999999989
10
-18.857142857142861
20
-45.999999642372131
10
-18.857142857142843
20
19.000000357627876
42
0.99999999999999989
0
LWPOLYLINE
5
118
100
AcDbEntity
8
0
100
AcDbPolyline
90
4
70
1
43
0.0
10
5.2857142857143025
20
19.000000357627876
10
5.2857142857142847
20
-45.999999642372131
42
0.99999999999999989
10
8.2857142857142918
20
-45.999999642372131
10
8.2857142857143096
20
19.000000357627876
42
0.99999999999999989
0
LWPOLYLINE
5
119
100
AcDbEntity
8
0
100
AcDbPolyline
90
4
70
1
43
0.0
10
32.428571428571445
20
19.000000357627876
10
32.428571428571423
20
-45.999999642372131
42
0.99999999999999989
10
35.428571428571431
20
-45.999999642372131
10
35.428571428571452
20
19.000000357627876
42
0.99999999999999989
0
CIRCLE
5
120
100
AcDbEntity
8
0
100
AcDbCircle
10
47.5
20
-45.999999642372131
30
0
40
1.749999999999998
210
0
220
0
230
1
0
LWPOLYLINE
5
121
100
AcDbEntity
8
0
100
AcDbPolyline
90
4
70
1
43
0.0
10
39.214285714285722
20
19.000000357627876
10
39.214285714285708
20
-45.999999642372131
42
0.99999999999999989
10
42.214285714285715
20
-45.999999642372131
10
42.214285714285737
20
19.000000357627876
42
0.99999999999999989
0
LWPOLYLINE
5
122
100
AcDbEntity
8
0
100
AcDbPolyline
90
4
70
1
43
0.0
10
12.071428571428582
20
19.000000357627876
10
12.071428571428564
20
-45.999999642372131
42
0.99999999999999989
10
15.071428571428571
20
-45.999999642372131
10
15.071428571428589
20
19.000000357627876
42
0.99999999999999989
0
LWPOLYLINE
5
123
100
AcDbEntity
8
0
100
AcDbPolyline
90
4
70
1
43
0.0
10
-15.071428571428562
20
19.000000357627876
10
-15.07142857142858
20
-45.999999642372131
42
0.99999999999999989
10
-12.071428571428573
20
-45.999999642372131
10
-12.071428571428555
20
19.000000357627876
42
0.99999999999999989
0
LWPOLYLINE
5
124
100
AcDbEntity
8
0
100
AcDbPolyline
90
4
70
1
43
0.0
10
-42.214285714285694
20
19.000000357627876
10
-42.214285714285715
20
-45.999999642372131
42
0.99999999999999989
10
-39.214285714285708
20
-45.999999642372131
10
-39.214285714285694
20
19.000000357627876
42
0.99999999999999989
0
CIRCLE
5
125
100
AcDbEntity
8
0
100
AcDbCircle
10
0
20
-45.999999642372131
30
0
40
1.7499999999999973
210
0
220
0
230
1
0
LWPOLYLINE
5
126
100
AcDbEntity
8
0
100
AcDbPolyline
90
8
70
1
43
0.0
10
52.5
20
-45.999999642372131
42
-0.41421356237309503
10
47.5
20
-50.999999642372131
10
-47.5
20
-50.999999642372131
42
-0.41421356237309503
10
-52.5
20
-45.999999642372131
10
-52.499999999999993
20
19.000000357627869
42
-0.41421356237309609
10
-47.499999999999993
20
24.000000357627869
10
47.500000000000007
20
24.000000357627886
42
-0.41421356237309503
10
52.500000000000007
20
19.000000357627869
0
ENDSEC
0
SECTION
2
OBJECTS
0
DICTIONARY
5
C
100
AcDbDictionary
3
ACAD_GROUP
350
D
3
ACAD_MLINESTYLE
350
17
0
DICTIONARY
5
D
100
AcDbDictionary
0
DICTIONARY
5
1A
330
C
100
AcDbDictionary
0
DICTIONARY
5
17
100
AcDbDictionary
0
ENDSEC
0
EOF
